  0
SECTION
  2
HEADER
  9
$ACADVER
  1
AC1009
  9
$INSBASE
 10
0.0
 20
0.0
 30
0.0
  9
$EXTMIN
 10
-169.99999999999989
 20
-265.06290600000011
 30
0.0
  9
$EXTMAX
 10
370.0
 20
537.06362999999999
 30
0.0
  9
$LIMMIN
 10
0.0
 20
0.0
  9
$LIMMAX
 10
0.0
 20
0.0
  9
$ORTHOMODE
 70
     0
  9
$REGENMODE
 70
     1
  9
$FILLMODE
 70
     1
  9
$QTEXTMODE
 70
     0
  9
$MIRRTEXT
 70
     1
  9
$DRAGMODE
 70
     2
  9
$LTSCALE
 40
15.24
  9
$OSMODE
 70
   167
  9
$ATTMODE
 70
     1
  9
$TEXTSIZE
 40
0.0
  9
$TRACEWID
 40
1.0
  9
$TEXTSTYLE
  7
STANDARD
  9
$CLAYER
  8
0
  9
$CELTYPE
  6
CONTINUOUS
  9
$CECOLOR
 62
   256
  9
$DIMSCALE
 40
1.0
  9
$DIMASZ
 40
0.18
  9
$DIMEXO
 40
0.0625
  9
$DIMDLI
 40
0.38
  9
$DIMRND
 40
0.0
  9
$DIMDLE
 40
0.0
  9
$DIMEXE
 40
0.18
  9
$DIMTP
 40
0.0
  9
$DIMTM
 40
0.0
  9
$DIMTXT
 40
0.18
  9
$DIMCEN
 40
0.09
  9
$DIMTSZ
 40
0.0
  9
$DIMTOL
 70
     0
  9
$DIMLIM
 70
     0
  9
$DIMTIH
 70
     1
  9
$DIMTOH
 70
     1
  9
$DIMSE1
 70
     0
  9
$DIMSE2
 70
     0
  9
$DIMTAD
 70
     0
  9
$DIMZIN
 70
     0
  9
$DIMBLK
  1

  9
$DIMASO
 70
     1
  9
$DIMSHO
 70
     1
  9
$DIMPOST
  1

  9
$DIMAPOST
  1

  9
$DIMALT
 70
     0
  9
$DIMALTD
 70
     2
  9
$DIMALTF
 40
25.399999999999999
  9
$DIMLFAC
 40
1.0
  9
$DIMTOFL
 70
     0
  9
$DIMTVP
 40
0.0
  9
$DIMTIX
 70
     0
  9
$DIMSOXD
 70
     0
  9
$DIMSAH
 70
     0
  9
$DIMBLK1
  1

  9
$DIMBLK2
  1

  9
$DIMSTYLE
  2
STANDARD
  9
$DIMCLRD
 70
     0
  9
$DIMCLRE
 70
     0
  9
$DIMCLRT
 70
     0
  9
$DIMTFAC
 40
1.0
  9
$DIMGAP
 40
0.09
  9
$LUNITS
 70
     2
  9
$LUPREC
 70
     4
  9
$SKETCHINC
 40
0.1
  9
$FILLETRAD
 40
0.0
  9
$AUNITS
 70
     0
  9
$AUPREC
 70
     0
  9
$MENU
  1
acad
  9
$ELEVATION
 40
0.0
  9
$PELEVATION
 40
0.0
  9
$THICKNESS
 40
0.0
  9
$LIMCHECK
 70
     0
  9
$BLIPMODE
 70
     0
  9
$CHAMFERA
 40
0.0
  9
$CHAMFERB
 40
0.0
  9
$SKPOLY
 70
     0
  9
$TDCREATE
 40
2452516.642291666
  9
$TDUPDATE
 40
2452516.6552833328
  9
$TDINDWG
 40
0.0003127315
  9
$TDUSRTIMER
 40
0.0003127315
  9
$USRTIMER
 70
     1
  9
$ANGBASE
 50
0.0
  9
$ANGDIR
 70
     0
  9
$PDMODE
 70
     1
  9
$PDSIZE
 40
-2.0
  9
$PLINEWID
 40
0.0
  9
$COORDS
 70
     0
  9
$SPLFRAME
 70
     0
  9
$SPLINETYPE
 70
     6
  9
$SPLINESEGS
 70
     8
  9
$ATTDIA
 70
     0
  9
$ATTREQ
 70
     1
  9
$HANDLING
 70
 22529
  9
$HANDSEED
  5
2D9
  9
$SURFTAB1
 70
     6
  9
$SURFTAB2
 70
     6
  9
$SURFTYPE
 70
     6
  9
$SURFU
 70
     6
  9
$SURFV
 70
     6
  9
$UCSNAME
  2

  9
$UCSORG
 10
0.0
 20
0.0
 30
0.0
  9
$UCSXDIR
 10
1.0
 20
0.0
 30
0.0
  9
$UCSYDIR
 10
0.0
 20
1.0
 30
0.0
  9
$PUCSNAME
  2

  9
$PUCSORG
 10
0.0
 20
0.0
 30
0.0
  9
$PUCSXDIR
 10
1.0
 20
0.0
 30
0.0
  9
$PUCSYDIR
 10
0.0
 20
1.0
 30
0.0
  9
$USERI1
 70
     0
  9
$USERI2
 70
     0
  9
$USERI3
 70
     0
  9
$USERI4
 70
     0
  9
$USERI5
 70
     0
  9
$USERR1
 40
0.0
  9
$USERR2
 40
0.0
  9
$USERR3
 40
0.0
  9
$USERR4
 40
0.0
  9
$USERR5
 40
0.0
  9
$WORLDVIEW
 70
     1
  9
$SHADEDGE
 70
     3
  9
$SHADEDIF
 70
    70
  9
$TILEMODE
 70
     1
  9
$MAXACTVP
 70
    16
  9
$PLIMCHECK
 70
     0
  9
$PEXTMIN
 10
1.0000000000000000E+020
 20
1.0000000000000000E+020
 30
1.0000000000000000E+020
  9
$PEXTMAX
 10
-1.0000000000000000E+020
 20
-1.0000000000000000E+020
 30
-1.0000000000000000E+020
  9
$PLIMMIN
 10
0.0
 20
0.0
  9
$PLIMMAX
 10
12.0
 20
9.0
  9
$UNITMODE
 70
     0
  9
$VISRETAIN
 70
     0
  9
$PLINEGEN
 70
     1
  9
$PSLTSCALE
 70
     0
  0
ENDSEC
  0
SECTION
  2
TABLES
  0
TABLE
  2
VPORT
 70
     2
  0
VPORT
  2
*ACTIVE
 70
     0
 10
0.0
 20
0.0
 11
1.0
 21
1.0
 12
100.0000003127606
 22
136.00036080264269
 13
0.0
 23
0.0
 14
1.0
 24
1.0
 15
0.0
 25
0.0
 16
0.0
 26
0.0
 36
1.0
 17
0.0
 27
0.0
 37
0.0
 40
875.39960474008524
 41
1.664912280701754
 42
50.0
 43
0.0
 44
0.0
 50
0.0
 51
0.0
 71
     0
 72
   100
 73
     1
 74
     1
 75
     0
 76
     0
 77
     0
 78
     0
  0
ENDTAB
  0
TABLE
  2
LTYPE
 70
    11
  0
LTYPE
  2
CONTINUOUS
 70
     0
  3
Solid line
 72
    65
 73
     0
 40
0.0
  0
LTYPE
  2
STYLE_01
 70
     0
  3

 72
    65
 73
     2
 40
0.4166412353515625
 49
0.208282470703125
 49
-0.2083587646484375
  0
LTYPE
  2
STYLE_02
 70
     0
  3

 72
    65
 73
     2
 40
0.694427490234375
 49
0.4860687255859375
 49
-0.2083587646484375
  0
LTYPE
  2
STYLE_03
 70
     0
  3

 72
    65
 73
     2
 40
1.25
 49
1.0416412353515621
 49
-0.2083587646484375
  0
LTYPE
  2
STYLE_04
 70
     0
  3

 72
    65
 73
     2
 40
1.5277099609375
 49
1.319427490234375
 49
-0.208282470703125
  0
LTYPE
  2
STYLE_05
 70
     0
  3

 72
    65
 73
     2
 40
0.208282470703125
 49
0.069427490234375
 49
-0.13885498046875
  0
LTYPE
  2
STYLE_06
 70
     0
  3

 72
    65
 73
     4
 40
1.0416412353515621
 49
0.625
 49
-0.208282470703125
 49
0.069427490234375
 49
-0.1389312744140625
  0
LTYPE
  2
STYLE_07
 70
     0
  3

 72
    65
 73
     6
 40
1.875
 49
0.625
 49
-0.208282470703125
 49
0.625
 49
-0.2083587646484375
 49
0.069427490234375
 49
-0.1389312744140625
  0
LTYPE
  2
STYLE_08
 70
     0
  3

 72
    65
 73
     6
 40
1.25
 49
0.625
 49
-0.208282470703125
 49
0.069427490234375
 49
-0.1389312744140625
 49
0.069427490234375
 49
-0.1389312744140625
  0
LTYPE
  2
STYLE_09
 70
     0
  3

 72
    65
 73
     4
 40
5.0
 49
3.75
 49
-0.2777862548828125
 49
0.694427490234375
 49
-0.2777862548828125
  0
LTYPE
  2
STYLE_10
 70
     0
  3

 72
    65
 73
     6
 40
5.9375
 49
3.75
 49
-0.2777862548828125
 49
0.694427490234375
 49
-0.2777862548828125
 49
0.625
 49
-0.3125
  0
ENDTAB
  0
TABLE
  2
LAYER
 70
     4
  0
LAYER
  2
0
 70
     0
 62
     7
  6
CONTINUOUS
  0
LAYER
  2
HIBINO-BASE
 70
     0
 62
     7
  6
CONTINUOUS
  0
LAYER
  2
DIMNSIONS
 70
     0
 62
     7
  6
CONTINUOUS
  0
LAYER
  2
DATA
 70
     0
 62
     7
  6
CONTINUOUS
  0
ENDTAB
  0
TABLE
  2
STYLE
 70
     2
  0
STYLE
  2
STANDARD
 70
     0
 40
0.0
 41
1.0
 50
0.0
 71
     0
 42
0.0
  3
txt
  4
BIGFONT.SHX
  0
ENDTAB
  0
TABLE
  2
VIEW
 70
     0
  0
ENDTAB
  0
TABLE
  2
UCS
 70
     0
  0
ENDTAB
  0
TABLE
  2
APPID
 70
     1
  0
APPID
  2
ACAD
 70
     0
  0
ENDTAB
  0
TABLE
  2
DIMSTYLE
 70
     1
  0
DIMSTYLE
  2
STANDARD
 70
     0
  3

  4

  5

  6

  7

 40
1.0
 41
0.18
 42
0.0625
 43
0.38
 44
0.18
 45
0.0
 46
0.0
 47
0.0
 48
0.0
140
0.18
141
0.09
142
0.0
143
25.399999999999999
144
1.0
145
0.0
146
1.0
147
0.09
 71
     0
 72
     0
 73
     1
 74
     1
 75
     0
 76
     0
 77
     0
 78
     0
170
     0
171
     2
172
     0
173
     0
174
     0
175
     0
176
     0
177
     0
178
     0
  0
ENDTAB
  0
ENDSEC
  0
SECTION
  2
BLOCKS
  0
BLOCK
  8
0
  2
$MODEL_SPACE
 70
     0
 10
0.0
 20
0.0
 30
0.0
  3
$MODEL_SPACE
  1

  0
ENDBLK
  5
184
  8
0
  0
BLOCK
 67
     1
  8
0
  2
$PAPER_SPACE
 70
     0
 10
0.0
 20
0.0
 30
0.0
  3
$PAPER_SPACE
  1

  0
ENDBLK
  5
180
 67
     1
  8
0
  0
ENDSEC
  0
SECTION
  2
ENTITIES
  0
LINE
  5
199
  8
HIBINO-BASE
  6
CONTINUOUS
 62
     7
 10
-169.99999999999989
 20
537.06362999999999
 30
0.0
 11
370.0
 21
537.06362999999999
 31
0.0
  0
LINE
  5
19A
  8
HIBINO-BASE
  6
CONTINUOUS
 62
     7
 10
370.0
 20
-242.93637000000001
 30
0.0
 11
-169.99999999999989
 21
-242.93637000000001
 31
0.0
  0
LINE
  5
19B
  8
HIBINO-BASE
  6
CONTINUOUS
 62
     7
 10
-169.99999999999989
 20
-242.93637000000001
 30
0.0
 11
-169.99999999999989
 21
537.06362999999999
 31
0.0
  0
TEXT
  5
19C
  8
HIBINO-BASE
 62
     7
 10
-148.44799999999989
 20
-261.32032199999992
 30
0.0
 40
11.227752000000001
  1
Hibino Corporation
 41
0.8
 11
-148.44799999999989
 21
-250.09256999999991
 31
0.0
 73
     3
  0
LINE
  5
19D
  8
HIBINO-BASE
  6
CONTINUOUS
 62
     7
 10
370.0
 20
537.06362999999999
 30
0.0
 11
370.0
 21
-242.93637000000001
 31
0.0
  0
LINE
  5
19E
  8
HIBINO-BASE
  6
CONTINUOUS
 62
     7
 10
100.0
 20
-175.4363699999999
 30
0.0
 11
370.0
 21
-175.4363699999999
 31
0.0
  0
LINE
  5
19F
  8
HIBINO-BASE
  6
CONTINUOUS
 62
     7
 10
100.0
 20
-242.93637000000001
 30
0.0
 11
100.0
 21
-175.4363699999999
 31
0.0
  0
TEXT
  5
1A0
  8
HIBINO-BASE
 62
     7
 10
102.7
 20
-182.5814499999999
 30
0.0
 40
5.0799999999999992
  1
NOTE
 41
0.8
 11
102.7
 21
-177.50144999999989
 31
0.0
 73
     3
  0
LINE
  5
1A1
  8
HIBINO-BASE
  6
CONTINUOUS
 62
     7
 10
205.0
 20
-242.93637000000001
 30
0.0
 11
205.0
 21
-175.4363699999999
 31
0.0
  0
TEXT
  5
1A2
  8
HIBINO-BASE
 62
     7
 10
207.6999999999999
 20
-182.5814499999999
 30
0.0
 40
5.0799999999999992
  1
TITLE
 41
0.8
 11
207.6999999999999
 21
-177.50144999999989
 31
0.0
 73
     3
  0
TEXT
  5
1A3
  8
HIBINO-BASE
 62
     7
 10
250.2051699999999
 20
-261.32032199999992
 30
0.0
 40
11.227752000000001
  1
ヒビノ株式会社
 41
0.8
 11
250.2051699999999
 21
-250.09256999999991
 31
0.0
 73
     3
  0
LINE
  5
1A4
  8
HIBINO-BASE
  6
CONTINUOUS
 62
     7
 10
100.0
 20
-212.9363699999999
 30
0.0
 11
370.0
 21
-212.9363699999999
 31
0.0
  0
TEXT
  5
1A5
  8
HIBINO-BASE
 62
     7
 10
245.1999999999999
 20
-219.91248999999991
 30
0.0
 40
5.0799999999999992
  1
DRAWN
 41
0.8
 11
245.1999999999999
 21
-214.83248999999989
 31
0.0
 73
     3
  0
TEXT
  5
1A6
  8
HIBINO-BASE
 62
     7
 10
170.1999999999999
 20
-219.91248999999991
 30
0.0
 40
5.0799999999999992
  1
DATE
 41
0.8
 11
170.1999999999999
 21
-214.83248999999989
 31
0.0
 73
     3
  0
TEXT
  5
1A7
  8
HIBINO-BASE
 62
     7
 10
103.2999999999999
 20
-220.41373799999991
 30
0.0
 40
5.0800080000000003
  1
図面サイズ
 41
0.8
 11
103.2999999999999
 21
-215.33373
 31
0.0
 73
     3
  0
TEXT
  5
1A8
  8
HIBINO-BASE
 62
     7
 10
140.1999999999999
 20
-219.91248999999991
 30
0.0
 40
5.0799999999999992
  1
SCALE
 41
0.8
 11
140.1999999999999
 21
-214.83248999999989
 31
0.0
 73
     3
  0
TEXT
  5
1A9
  8
HIBINO-BASE
 62
     7
 10
207.6999999999999
 20
-219.91248999999991
 30
0.0
 40
5.0799999999999992
  1
DESIGN
 41
0.8
 11
207.6999999999999
 21
-214.83248999999989
 31
0.0
 73
     3
  0
TEXT
  5
1AA
  8
HIBINO-BASE
 62
     7
 10
320.19999999999987
 20
-219.91248999999991
 30
0.0
 40
5.0799999999999992
  1
DRAWING NO.
 41
0.8
 11
320.19999999999987
 21
-214.83248999999989
 31
0.0
 73
     3
  0
TEXT
  5
1AB
  8
HIBINO-BASE
 62
     7
 10
282.69999999999987
 20
-219.91248999999991
 30
0.0
 40
5.0799999999999992
  1
CHECK
 41
0.8
 11
282.69999999999987
 21
-214.83248999999989
 31
0.0
 73
     3
  0
LINE
  5
1AC
  8
HIBINO-BASE
  6
CONTINUOUS
 62
     7
 10
143.12499999999989
 20
-239.18637000000001
 30
0.0
 11
154.375
 21
-227.9363699999999
 31
0.0
  0
TEXT
  5
1AD
  8
HIBINO-BASE
 62
     7
 10
141.24999999999989
 20
-230.88220000000001
 30
0.0
 40
5.0799999999999992
  1
1
 41
0.8
 11
141.24999999999989
 21
-225.80219999999991
 31
0.0
 73
     3
  0
LINE
  5
1AE
  8
HIBINO-BASE
  6
CONTINUOUS
 62
     7
 10
137.49999999999989
 20
-242.93637000000001
 30
0.0
 11
137.49999999999989
 21
-212.9363699999999
 31
0.0
  0
LINE
  5
1AF
  8
HIBINO-BASE
  6
CONTINUOUS
 62
     7
 10
167.49999999999989
 20
-242.93637000000001
 30
0.0
 11
167.49999999999989
 21
-212.9363699999999
 31
0.0
  0
LINE
  5
1B0
  8
HIBINO-BASE
  6
CONTINUOUS
 62
     7
 10
242.49999999999989
 20
-212.9363699999999
 30
0.0
 11
242.49999999999989
 21
-242.93637000000001
 31
0.0
  0
LINE
  5
1B1
  8
HIBINO-BASE
  6
CONTINUOUS
 62
     7
 10
317.5
 20
-212.9363699999999
 30
0.0
 11
317.5
 21
-242.93637000000001
 31
0.0
  0
LINE
  5
1B2
  8
HIBINO-BASE
  6
CONTINUOUS
 62
     7
 10
279.99999999999989
 20
-242.93637000000001
 30
0.0
 11
279.99999999999989
 21
-212.9363699999999
 31
0.0
  0
TEXT
  5
1B3
  8
HIBINO-BASE
 62
     7
 10
170.0696199999999
 20
-233.96442999999999
 30
0.0
 40
5.0799999999999992
  1
'99.04.
 41
0.8
 11
170.0696199999999
 21
-228.88443000000001
 31
0.0
 73
     3
  0
TEXT
  5
1B4
  8
HIBINO-BASE
 62
     7
 10
152.5
 20
-236.50720000000001
 30
0.0
 40
5.0799999999999992
  1
3
 41
0.8
 11
152.5
 21
-231.42719999999991
 31
0.0
 73
     3
  0
TEXT
  5
1B5
  8
HIBINO-BASE
 62
     7
 10
247.01743003310381
 20
-233.96442999999999
 30
0.0
 40
5.0799999999999992
  1
N.Sasaki
 41
0.8
 11
247.01743003310381
 21
-228.88443000000001
 31
0.0
 73
     3
  0
TEXT
  5
1B6
  8
HIBINO-BASE
 62
     7
 10
111.65000000000001
 20
-236.2463699999999
 30
0.0
 40
10.159999999999989
  1
A4
 41
0.8
 11
111.65000000000001
 21
-226.0863699999999
 31
0.0
 73
     3
  0
TEXT
  5
1B7
  8
DIMNSIONS
 62
     7
 10
39.999999999999993
 20
-205.55639999999991
 30
0.0
 40
7.6199999999999983
  1
(単位：mm)
 41
0.8
 11
39.999999999999993
 21
-197.93639999999991
 31
0.0
 73
     3
  0
LINE
  5
1B8
  8
DIMNSIONS
  6
CONTINUOUS
 62
     7
 10
-44.000000000000021
 20
229.59999999999991
 30
0.0
 11
18.5
 21
229.59999999999991
 31
0.0
  0
LINE
  5
1B9
  8
DIMNSIONS
  6
CONTINUOUS
 62
     7
 10
18.499999999999979
 20
325.0
 30
0.0
 11
18.5
 21
325.0
 31
0.0
  0
LINE
  5
1BA
  8
DIMNSIONS
 62
     7
 10
12.5
 20
229.59999999999991
 30
0.0
 11
10.489880614549261
 21
237.10186767578111
 31
0.0
  0
LINE
  5
1BB
  8
DIMNSIONS
 62
     7
 10
12.5
 20
229.59999999999991
 30
0.0
 11
14.51011938545072
 21
237.10186767578111
 31
0.0
  0
LINE
  5
1BC
  8
DIMNSIONS
 62
     7
 10
12.5
 20
325.0
 30
0.0
 11
14.51011938545072
 21
317.49813232421877
 31
0.0
  0
LINE
  5
1BD
  8
DIMNSIONS
 62
     7
 10
12.5
 20
325.0
 30
0.0
 11
10.48988061454927
 21
317.49813232421877
 31
0.0
  0
LINE
  5
1BE
  8
DIMNSIONS
  6
CONTINUOUS
 62
     7
 10
12.5
 20
229.59999999999991
 30
0.0
 11
12.5
 21
325.0
 31
0.0
  0
TEXT
  5
1BF
  8
DIMNSIONS
 62
     7
 10
8.8833333333333364
 20
266.7166666666667
 30
0.0
 40
8.466666666666665
  1
95.4
 50
90.0
 41
0.8
 11
0.4166666666666714
 21
266.7166666666667
 31
0.0
 73
     3
  0
LINE
  5
1C0
  8
DIMNSIONS
  6
CONTINUOUS
 62
     7
 10
-86.999999999999901
 20
119.9999999999997
 30
0.0
 11
-106.0
 21
119.9999999999997
 31
0.0
  0
LINE
  5
1C1
  8
DIMNSIONS
  6
CONTINUOUS
 62
     7
 10
-87.000000000000014
 20
29.99999999999994
 30
0.0
 11
-106.0
 21
29.99999999999994
 31
0.0
  0
LINE
  5
1C2
  8
DIMNSIONS
 62
     7
 10
-100.0
 20
119.9999999999997
 30
0.0
 11
-97.989880614549264
 21
112.4981323242185
 31
0.0
  0
LINE
  5
1C3
  8
DIMNSIONS
 62
     7
 10
-100.0
 20
119.9999999999997
 30
0.0
 11
-102.01011938545069
 21
112.4981323242185
 31
0.0
  0
LINE
  5
1C4
  8
DIMNSIONS
 62
     7
 10
-100.0
 20
29.99999999999994
 30
0.0
 11
-102.01011938545069
 21
37.501867675781192
 31
0.0
  0
LINE
  5
1C5
  8
DIMNSIONS
 62
     7
 10
-100.0
 20
29.99999999999994
 30
0.0
 11
-97.989880614549264
 21
37.501867675781192
 31
0.0
  0
LINE
  5
1C6
  8
DIMNSIONS
  6
CONTINUOUS
 62
     7
 10
-100.0
 20
119.9999999999997
 30
0.0
 11
-100.0
 21
29.99999999999994
 31
0.0
  0
TEXT
  5
1C7
  8
DIMNSIONS
 62
     7
 10
-103.6166666666666
 20
69.708333333333186
 30
0.0
 40
8.466666666666665
  1
90
 50
90.0
 41
0.8
 11
-112.0833333333333
 21
69.708333333333186
 31
0.0
 73
     3
  0
LINE
  5
1C8
  8
DIMNSIONS
  6
CONTINUOUS
 62
     7
 10
-85.000000000000114
 20
26.99999999999994
 30
0.0
 11
-85.000000000000114
 21
6.5
 31
0.0
  0
LINE
  5
1C9
  8
DIMNSIONS
  6
CONTINUOUS
 62
     7
 10
-15.000000000000011
 20
26.99999999999994
 30
0.0
 11
-15.000000000000011
 21
6.5
 31
0.0
  0
LINE
  5
1CA
  8
DIMNSIONS
 62
     7
 10
-85.000000000000114
 20
12.5
 30
0.0
 11
-77.498132324218844
 21
14.51011938545073
 31
0.0
  0
LINE
  5
1CB
  8
DIMNSIONS
 62
     7
 10
-85.000000000000114
 20
12.5
 30
0.0
 11
-77.498132324218844
 21
10.489880614549261
 31
0.0
  0
LINE
  5
1CC
  8
DIMNSIONS
 62
     7
 10
-15.000000000000011
 20
12.5
 30
0.0
 11
-22.50186767578127
 21
10.489880614549261
 31
0.0
  0
LINE
  5
1CD
  8
DIMNSIONS
 62
     7
 10
-15.000000000000011
 20
12.5
 30
0.0
 11
-22.50186767578127
 21
14.51011938545073
 31
0.0
  0
LINE
  5
1CE
  8
DIMNSIONS
  6
CONTINUOUS
 62
     7
 10
-85.000000000000114
 20
12.5
 30
0.0
 11
-15.000000000000011
 21
12.5
 31
0.0
  0
TEXT
  5
1CF
  8
DIMNSIONS
 62
     7
 10
-55.291666666666728
 20
16.11666666666666
 30
0.0
 40
8.466666666666665
  1
70
 41
0.8
 11
-55.291666666666728
 21
24.583333333333329
 31
0.0
 73
     3
  0
LINE
  5
1D0
  8
DIMNSIONS
  6
CONTINUOUS
 62
     7
 10
249.99999999999989
 20
81.0
 30
0.0
 11
249.99999999999989
 21
156.0
 31
0.0
  0
LINE
  5
1D1
  8
DIMNSIONS
  6
CONTINUOUS
 62
     7
 10
275.0
 20
115.4999999999999
 30
0.0
 11
275.0
 21
156.0
 31
0.0
  0
LINE
  5
1D2
  8
DIMNSIONS
 62
     7
 10
249.99999999999989
 20
150.0
 30
0.0
 11
257.50186767578111
 21
152.01011938545071
 31
0.0
  0
LINE
  5
1D3
  8
DIMNSIONS
 62
     7
 10
249.99999999999989
 20
150.0
 30
0.0
 11
257.50186767578111
 21
147.98988061454921
 31
0.0
  0
LINE
  5
1D4
  8
DIMNSIONS
 62
     7
 10
275.0
 20
150.0
 30
0.0
 11
267.49813232421877
 21
147.98988061454921
 31
0.0
  0
LINE
  5
1D5
  8
DIMNSIONS
 62
     7
 10
275.0
 20
150.0
 30
0.0
 11
267.49813232421877
 21
152.01011938545071
 31
0.0
  0
LINE
  5
1D6
  8
DIMNSIONS
  6
CONTINUOUS
 62
     7
 10
249.99999999999989
 20
150.0
 30
0.0
 11
275.0
 21
150.0
 31
0.0
  0
TEXT
  5
1D7
  8
DIMNSIONS
 62
     7
 10
257.2083333333332
 20
153.61666666666659
 30
0.0
 40
8.466666666666665
  1
25
 41
0.8
 11
257.2083333333332
 21
162.08333333333329
 31
0.0
 73
     3
  0
LINE
  5
1D8
  8
DIMNSIONS
  6
CONTINUOUS
 62
     7
 10
299.99999999999989
 20
81.0
 30
0.0
 11
299.99999999999989
 21
156.0
 31
0.0
  0
LINE
  5
1D9
  8
DIMNSIONS
  6
CONTINUOUS
 62
     7
 10
275.0
 20
115.4999999999999
 30
0.0
 11
275.0
 21
156.0
 31
0.0
  0
LINE
  5
1DA
  8
DIMNSIONS
 62
     7
 10
299.99999999999989
 20
150.0
 30
0.0
 11
292.4981323242186
 21
147.98988061454921
 31
0.0
  0
LINE
  5
1DB
  8
DIMNSIONS
 62
     7
 10
299.99999999999989
 20
150.0
 30
0.0
 11
292.4981323242186
 21
152.01011938545071
 31
0.0
  0
LINE
  5
1DC
  8
DIMNSIONS
 62
     7
 10
275.0
 20
150.0
 30
0.0
 11
282.50186767578128
 21
152.01011938545071
 31
0.0
  0
LINE
  5
1DD
  8
DIMNSIONS
 62
     7
 10
275.0
 20
150.0
 30
0.0
 11
282.50186767578128
 21
147.98988061454921
 31
0.0
  0
LINE
  5
1DE
  8
DIMNSIONS
  6
CONTINUOUS
 62
     7
 10
299.99999999999989
 20
150.0
 30
0.0
 11
275.0
 21
150.0
 31
0.0
  0
TEXT
  5
1DF
  8
DIMNSIONS
 62
     7
 10
282.2083333333332
 20
153.61666666666659
 30
0.0
 40
8.466666666666665
  1
25
 41
0.8
 11
282.2083333333332
 21
162.08333333333329
 31
0.0
 73
     3
  0
LINE
  5
1E0
  8
DIMNSIONS
  6
CONTINUOUS
 62
     7
 10
299.99999999999989
 20
81.0
 30
0.0
 11
299.99999999999989
 21
156.0
 31
0.0
  0
LINE
  5
1E1
  8
DIMNSIONS
  6
CONTINUOUS
 62
     7
 10
310.0
 20
123.0
 30
0.0
 11
310.0
 21
156.0
 31
0.0
  0
LINE
  5
1E2
  8
DIMNSIONS
  6
CONTINUOUS
 62
     7
 10
310.0
 20
150.0
 30
0.0
 11
299.99999999999989
 21
150.0
 31
0.0
  0
LINE
  5
1E3
  8
DIMNSIONS
 62
     7
 10
299.99999999999989
 20
150.0
 30
0.0
 11
292.4981323242186
 21
147.98988061454921
 31
0.0
  0
LINE
  5
1E4
  8
DIMNSIONS
 62
     7
 10
299.99999999999989
 20
150.0
 30
0.0
 11
292.4981323242186
 21
152.01011938545071
 31
0.0
  0
LINE
  5
1E5
  8
DIMNSIONS
  6
CONTINUOUS
 62
     7
 10
299.99999999999989
 20
150.0
 30
0.0
 11
284.99999999999977
 21
150.0
 31
0.0
  0
LINE
  5
1E6
  8
DIMNSIONS
 62
     7
 10
310.0
 20
150.0
 30
0.0
 11
317.50186767578128
 21
152.01011938545071
 31
0.0
  0
LINE
  5
1E7
  8
DIMNSIONS
 62
     7
 10
310.0
 20
150.0
 30
0.0
 11
317.50186767578128
 21
147.98988061454921
 31
0.0
  0
LINE
  5
1E8
  8
DIMNSIONS
  6
CONTINUOUS
 62
     7
 10
310.0
 20
150.0
 30
0.0
 11
329.3333333333332
 21
150.0
 31
0.0
  0
TEXT
  5
1E9
  8
DIMNSIONS
 62
     7
 10
318.75
 20
153.61666666666659
 30
0.0
 40
8.466666666666665
  1
10
 41
0.8
 11
318.75
 21
162.08333333333329
 31
0.0
 73
     3
  0
LINE
  5
1EA
  8
DIMNSIONS
  6
CONTINUOUS
 62
     7
 10
310.0
 20
123.0
 30
0.0
 11
310.0
 21
181.0
 31
0.0
  0
LINE
  5
1EB
  8
DIMNSIONS
  6
CONTINUOUS
 62
     7
 10
240.0
 20
123.0
 30
0.0
 11
240.0
 21
181.0
 31
0.0
  0
LINE
  5
1EC
  8
DIMNSIONS
 62
     7
 10
310.0
 20
175.0
 30
0.0
 11
302.49813232421877
 21
172.98988061454921
 31
0.0
  0
LINE
  5
1ED
  8
DIMNSIONS
 62
     7
 10
310.0
 20
175.0
 30
0.0
 11
302.49813232421877
 21
177.01011938545071
 31
0.0
  0
LINE
  5
1EE
  8
DIMNSIONS
 62
     7
 10
240.0
 20
175.0
 30
0.0
 11
247.5018676757812
 21
177.01011938545071
 31
0.0
  0
LINE
  5
1EF
  8
DIMNSIONS
 62
     7
 10
240.0
 20
175.0
 30
0.0
 11
247.5018676757812
 21
172.98988061454921
 31
0.0
  0
LINE
  5
1F0
  8
DIMNSIONS
  6
CONTINUOUS
 62
     7
 10
310.0
 20
175.0
 30
0.0
 11
240.0
 21
175.0
 31
0.0
  0
TEXT
  5
1F1
  8
DIMNSIONS
 62
     7
 10
269.70833333333331
 20
178.61666666666659
 30
0.0
 40
8.466666666666665
  1
70
 41
0.8
 11
269.70833333333331
 21
187.0833333333332
 31
0.0
 73
     3
  0
LINE
  5
1F2
  8
DIMNSIONS
  6
CONTINUOUS
 62
     7
 10
313.0
 20
120.0
 30
0.0
 11
343.5
 21
120.0
 31
0.0
  0
LINE
  5
1F3
  8
DIMNSIONS
  6
CONTINUOUS
 62
     7
 10
281.0
 20
109.4999999999999
 30
0.0
 11
343.5
 21
109.4999999999999
 31
0.0
  0
LINE
  5
1F4
  8
DIMNSIONS
  6
CONTINUOUS
 62
     7
 10
337.5
 20
109.4999999999999
 30
0.0
 11
337.5
 21
120.0
 31
0.0
  0
LINE
  5
1F5
  8
DIMNSIONS
 62
     7
 10
337.5
 20
120.0
 30
0.0
 11
335.48988061454918
 21
127.5018676757812
 31
0.0
  0
LINE
  5
1F6
  8
DIMNSIONS
 62
     7
 10
337.5
 20
120.0
 30
0.0
 11
339.51011938545071
 21
127.5018676757812
 31
0.0
  0
LINE
  5
1F7
  8
DIMNSIONS
  6
CONTINUOUS
 62
     7
 10
337.5
 20
120.0
 30
0.0
 11
337.5
 21
146.1666666666666
 31
0.0
  0
LINE
  5
1F8
  8
DIMNSIONS
 62
     7
 10
337.5
 20
109.4999999999999
 30
0.0
 11
339.51011938545071
 21
101.9981323242186
 31
0.0
  0
LINE
  5
1F9
  8
DIMNSIONS
 62
     7
 10
337.5
 20
109.4999999999999
 30
0.0
 11
335.48988061454918
 21
101.9981323242186
 31
0.0
  0
LINE
  5
1FA
  8
DIMNSIONS
  6
CONTINUOUS
 62
     7
 10
337.5
 20
109.4999999999999
 30
0.0
 11
337.5
 21
94.499999999999929
 31
0.0
  0
TEXT
  5
1FB
  8
DIMNSIONS
 62
     7
 10
333.88333333333321
 20
125.0
 30
0.0
 40
8.466666666666665
  1
10.5
 50
90.0
 41
0.8
 11
325.41666666666657
 21
125.0
 31
0.0
 73
     3
  0
LINE
  5
1FC
  8
DIMNSIONS
  6
CONTINUOUS
 62
     7
 10
281.0
 20
109.4999999999999
 30
0.0
 11
343.5
 21
109.4999999999999
 31
0.0
  0
LINE
  5
1FD
  8
DIMNSIONS
  6
CONTINUOUS
 62
     7
 10
305.99999999999977
 20
75.0
 30
0.0
 11
343.5
 21
75.0
 31
0.0
  0
LINE
  5
1FE
  8
DIMNSIONS
 62
     7
 10
337.5
 20
109.4999999999999
 30
0.0
 11
339.51011938545071
 21
101.9981323242186
 31
0.0
  0
LINE
  5
1FF
  8
DIMNSIONS
 62
     7
 10
337.5
 20
109.4999999999999
 30
0.0
 11
335.48988061454918
 21
101.9981323242186
 31
0.0
  0
LINE
  5
200
  8
DIMNSIONS
 62
     7
 10
337.5
 20
75.0
 30
0.0
 11
335.48988061454918
 21
82.501867675781256
 31
0.0
  0
LINE
  5
201
  8
DIMNSIONS
 62
     7
 10
337.5
 20
75.0
 30
0.0
 11
339.51011938545071
 21
82.501867675781256
 31
0.0
  0
LINE
  5
202
  8
DIMNSIONS
  6
CONTINUOUS
 62
     7
 10
337.5
 20
109.4999999999999
 30
0.0
 11
337.5
 21
75.0
 31
0.0
  0
TEXT
  5
203
  8
DIMNSIONS
 62
     7
 10
333.88333333333321
 20
81.666666666666643
 30
0.0
 40
8.466666666666665
  1
34.5
 50
90.0
 41
0.8
 11
325.41666666666657
 21
81.666666666666643
 31
0.0
 73
     3
  0
LINE
  5
204
  8
DIMNSIONS
  6
CONTINUOUS
 62
     7
 10
305.99999999999977
 20
75.0
 30
0.0
 11
343.5
 21
75.0
 31
0.0
  0
LINE
  5
205
  8
DIMNSIONS
  6
CONTINUOUS
 62
     7
 10
281.0
 20
40.499999999999993
 30
0.0
 11
343.5
 21
40.499999999999993
 31
0.0
  0
LINE
  5
206
  8
DIMNSIONS
 62
     7
 10
337.5
 20
75.0
 30
0.0
 11
339.51011938545071
 21
67.498132324218744
 31
0.0
  0
LINE
  5
207
  8
DIMNSIONS
 62
     7
 10
337.5
 20
75.0
 30
0.0
 11
335.48988061454918
 21
67.498132324218744
 31
0.0
  0
LINE
  5
208
  8
DIMNSIONS
 62
     7
 10
337.5
 20
40.499999999999993
 30
0.0
 11
335.48988061454918
 21
48.001867675781263
 31
0.0
  0
LINE
  5
209
  8
DIMNSIONS
 62
     7
 10
337.5
 20
40.499999999999993
 30
0.0
 11
339.51011938545071
 21
48.001867675781263
 31
0.0
  0
LINE
  5
20A
  8
DIMNSIONS
  6
CONTINUOUS
 62
     7
 10
337.5
 20
75.0
 30
0.0
 11
337.5
 21
40.499999999999993
 31
0.0
  0
TEXT
  5
20B
  8
DIMNSIONS
 62
     7
 10
333.88333333333321
 20
47.16666666666665
 30
0.0
 40
8.466666666666665
  1
34.5
 50
90.0
 41
0.8
 11
325.41666666666657
 21
47.16666666666665
 31
0.0
 73
     3
  0
LINE
  5
20C
  8
DIMNSIONS
  6
CONTINUOUS
 62
     7
 10
313.0
 20
30.00000000000005
 30
0.0
 11
362.25
 21
30.00000000000005
 31
0.0
  0
LINE
  5
20D
  8
DIMNSIONS
  6
CONTINUOUS
 62
     7
 10
313.0
 20
120.0
 30
0.0
 11
362.25
 21
120.0
 31
0.0
  0
LINE
  5
20E
  8
DIMNSIONS
 62
     7
 10
356.25
 20
30.00000000000005
 30
0.0
 11
354.23988061454918
 21
37.501867675781313
 31
0.0
  0
LINE
  5
20F
  8
DIMNSIONS
 62
     7
 10
356.25
 20
30.00000000000005
 30
0.0
 11
358.26011938545071
 21
37.501867675781313
 31
0.0
  0
LINE
  5
210
  8
DIMNSIONS
 62
     7
 10
356.25
 20
120.0
 30
0.0
 11
358.26011938545071
 21
112.4981323242187
 31
0.0
  0
LINE
  5
211
  8
DIMNSIONS
 62
     7
 10
356.25
 20
120.0
 30
0.0
 11
354.23988061454918
 21
112.4981323242187
 31
0.0
  0
LINE
  5
212
  8
DIMNSIONS
  6
CONTINUOUS
 62
     7
 10
356.25
 20
30.00000000000005
 30
0.0
 11
356.25
 21
120.0
 31
0.0
  0
TEXT
  5
213
  8
DIMNSIONS
 62
     7
 10
352.63333333333333
 20
69.708333333333357
 30
0.0
 40
8.466666666666665
  1
90
 50
90.0
 41
0.8
 11
344.16666666666669
 21
69.708333333333357
 31
0.0
 73
     3
  0
LINE
  5
214
  8
DIMNSIONS
 62
     7
 10
276.89096913365358
 20
37.436630003481241
 30
0.0
 11
282.47772522733368
 21
32.041562356229321
 31
0.0
  0
LINE
  5
215
  8
DIMNSIONS
 62
     7
 10
276.89096913365358
 20
37.436630003481241
 30
0.0
 11
279.0317080119022
 21
29.970986318985481
 31
0.0
  0
LINE
  5
216
  8
DIMNSIONS
  6
CONTINUOUS
 62
     7
 10
276.89096913365358
 20
37.436630003481241
 30
0.0
 11
300.0
 21
0.0
 31
0.0
  0
LINE
  5
217
  8
DIMNSIONS
  6
CONTINUOUS
 62
     7
 10
300.0
 20
0.0
 30
0.0
 11
344.4583333333332
 21
0.0
 31
0.0
  0
TEXT
  5
218
  8
DIMNSIONS
 62
     7
 10
318.0
 20
3.6166666666666631
 30
0.0
 40
8.466666666666665
  1
4-φ7
 41
0.8
 11
318.0
 21
12.08333333333333
 31
0.0
 73
     3
  0
TEXT
  5
219
  8
DATA
 62
     7
 10
249.99999999999989
 20
-187.2221999999999
 30
0.0
 40
7.6199999999999983
  1
JBL
 41
0.8
 11
249.99999999999989
 21
-179.6021999999999
 31
0.0
 73
     3
  0
TEXT
  5
21A
  8
DATA
 62
     7
 10
-139.99999999999989
 20
-229.84137000000001
 30
0.0
 40
5.0799999999999992
  1
仕様および外観は予告なく変更されることがありますので、ご了承ください。
 41
0.8
 11
-139.99999999999989
 21
-224.76137
 31
0.0
 73
     3
  0
LINE
  5
21B
  8
DATA
  6
CONTINUOUS
 62
     7
 10
107.0
 20
84.500000000000043
 30
0.0
 11
109.4999999999998
 21
84.500000000000043
 31
0.0
  0
LINE
  5
21C
  8
DATA
  6
CONTINUOUS
 62
     7
 10
107.0
 20
70.000000000000071
 30
0.0
 11
109.4999999999998
 21
70.000000000000071
 31
0.0
  0
LINE
  5
21D
  8
DATA
  6
CONTINUOUS
 62
     7
 10
107.0
 20
65.500000000000099
 30
0.0
 11
109.5000000000001
 21
65.500000000000099
 31
0.0
  0
LINE
  5
21E
  8
DATA
  6
CONTINUOUS
 62
     7
 10
-62.500000000000021
 20
-75.000000000000028
 30
0.0
 11
37.499999999999993
 21
-75.000000000000028
 31
0.0
  0
LINE
  5
21F
  8
DATA
  6
CONTINUOUS
 62
     7
 10
37.499999999999993
 20
-100.0
 30
0.0
 11
-62.500000000000021
 21
-100.0
 31
0.0
  0
LINE
  5
220
  8
DATA
  6
CONTINUOUS
 62
     7
 10
-82.000000000000128
 20
30.00000000000033
 30
0.0
 11
-18.000000000000011
 21
30.00000000000005
 31
0.0
  0
LINE
  5
221
  8
DATA
  6
CONTINUOUS
 62
     7
 10
-82.000000000000128
 20
119.9999999999996
 30
0.0
 11
-18.000000000000011
 21
119.9999999999998
 31
0.0
  0
CIRCLE
  5
222
  8
DATA
  6
CONTINUOUS
 62
     7
 10
-50.000000000000021
 20
75.0
 30
0.0
 40
17.25
  0
ARC
  5
223
  8
DATA
  6
CONTINUOUS
 62
     7
 10
-50.000000000000021
 20
40.499999999999773
 30
0.0
 40
9.8795681063123766
 50
0.0
 51
180.0
  0
ARC
  5
224
  8
DATA
  6
CONTINUOUS
 62
     7
 10
-50.000000000000021
 20
109.5000000000001
 30
0.0
 40
9.8795681063123766
 50
180.0
 51
0.0000000000003411
  0
LINE
  5
225
  8
DATA
  6
CONTINUOUS
 62
     7
 10
-68.750000000000014
 20
-37.500000000000021
 30
0.0
 11
-31.250000000000011
 21
-37.500000000000021
 31
0.0
  0
ARC
  5
226
  8
DATA
  6
CONTINUOUS
 62
     7
 10
-50.000000000000021
 20
40.499999999999773
 30
0.0
 40
8.75
 50
0.0
 51
180.0
  0
CIRCLE
  5
227
  8
DATA
  6
CONTINUOUS
 62
     7
 10
-50.000000000000021
 20
40.499999999999993
 30
0.0
 40
3.5
  0
CIRCLE
  5
228
  8
DATA
  6
CONTINUOUS
 62
     7
 10
-50.000000000000021
 20
109.4999999999999
 30
0.0
 40
3.5
  0
ARC
  5
229
  8
DATA
  6
CONTINUOUS
 62
     7
 10
-50.000000000000021
 20
109.5000000000001
 30
0.0
 40
8.75
 50
180.0
 51
0.0
  0
TEXT
  5
22A
  8
DATA
 62
     7
 10
-59.584194467364931
 20
-31.25000000000011
 30
0.0
 40
8.59375
  1
正面
 41
0.8
 11
-59.584194467364931
 21
-22.65625000000011
 31
0.0
 73
     3
  0
LINE
  5
22B
  8
DATA
  6
CONTINUOUS
 62
     7
 10
-62.500000000000021
 20
-100.0
 30
0.0
 11
-62.500000000000021
 21
-75.000000000000028
 31
0.0
  0
LINE
  5
22C
  8
DATA
  6
CONTINUOUS
 62
     7
 10
-83.999999999999886
 20
32.99999999999995
 30
0.0
 11
-83.999999999999886
 21
116.9999999999997
 31
0.0
  0
LINE
  5
22D
  8
DATA
  6
CONTINUOUS
 62
     7
 10
-85.000000000000114
 20
32.99999999999995
 30
0.0
 11
-85.000000000000114
 21
116.9999999999997
 31
0.0
  0
LINE
  5
22E
  8
DATA
  6
CONTINUOUS
 62
     7
 10
-59.879568106312163
 20
40.499999999999773
 30
0.0
 11
-59.879568106312163
 21
30.00000000000005
 31
0.0
  0
LINE
  5
22F
  8
DATA
  6
CONTINUOUS
 62
     7
 10
-58.749999999999893
 20
40.499999999999773
 30
0.0
 11
-58.749999999999893
 21
30.00000000000005
 31
0.0
  0
ARC
  5
230
  8
DATA
  6
CONTINUOUS
 62
     7
 10
-81.000000000000014
 20
32.99999999999995
 30
0.0
 40
3.0
 50
180.0
 51
270.0
  0
ARC
  5
231
  8
DATA
  6
CONTINUOUS
 62
     7
 10
-82.000000000000128
 20
32.99999999999995
 30
0.0
 40
3.0
 50
180.0
 51
270.0
  0
CIRCLE
  5
232
  8
DATA
  6
CONTINUOUS
 62
     7
 10
-74.999999999999901
 20
75.0
 30
0.0
 40
3.5
  0
LINE
  5
233
  8
DATA
  6
CONTINUOUS
 62
     7
 10
-75.000000000000128
 20
65.120431893687794
 30
0.0
 11
-83.999999999999886
 21
65.120431893687794
 31
0.0
  0
LINE
  5
234
  8
DATA
  6
CONTINUOUS
 62
     7
 10
-75.000000000000128
 20
66.249999999999915
 30
0.0
 11
-83.999999999999886
 21
66.249999999999915
 31
0.0
  0
LINE
  5
235
  8
DATA
  6
CONTINUOUS
 62
     7
 10
-75.000000000000128
 20
83.75
 30
0.0
 11
-83.999999999999886
 21
83.75
 31
0.0
  0
LINE
  5
236
  8
DATA
  6
CONTINUOUS
 62
     7
 10
-75.000000000000242
 20
84.879568106312377
 30
0.0
 11
-83.999999999999787
 21
84.879568106312377
 31
0.0
  0
ARC
  5
237
  8
DATA
  6
CONTINUOUS
 62
     7
 10
-75.000000000000128
 20
75.0
 30
0.0
 40
8.75
 50
270.0
 51
337.43257737196728
  0
ARC
  5
238
  8
DATA
  6
CONTINUOUS
 62
     7
 10
-75.000000000000128
 20
75.0
 30
0.0
 40
8.7500000000000391
 50
22.567422628032681
 51
90.0
  0
ARC
  5
239
  8
DATA
  6
CONTINUOUS
 62
     7
 10
-75.000000000000128
 20
75.0
 30
0.0
 40
9.8795681063123197
 50
270.0
 51
329.3670661387419
  0
ARC
  5
23A
  8
DATA
  6
CONTINUOUS
 62
     7
 10
-75.000000000000128
 20
75.0
 30
0.0
 40
9.8795681063123393
 50
30.632933861258021
 51
90.0
  0
ARC
  5
23B
  8
DATA
  6
CONTINUOUS
 62
     7
 10
-80.999999999999901
 20
116.9999999999997
 30
0.0
 40
3.0
 50
90.0
 51
180.0
  0
ARC
  5
23C
  8
DATA
  6
CONTINUOUS
 62
     7
 10
-82.000000000000128
 20
116.9999999999997
 30
0.0
 40
3.0
 50
90.0
 51
180.0
  0
LINE
  5
23D
  8
DATA
  6
CONTINUOUS
 62
     7
 10
-59.879568106312163
 20
109.5000000000001
 30
0.0
 11
-59.879568106312163
 21
119.9999999999998
 31
0.0
  0
LINE
  5
23E
  8
DATA
  6
CONTINUOUS
 62
     7
 10
-58.749999999999893
 20
109.5000000000001
 30
0.0
 11
-58.749999999999893
 21
119.9999999999998
 31
0.0
  0
TEXT
  5
23F
  8
DATA
 62
     7
 10
-35.471996999738749
 20
-91.500000000000028
 30
0.0
 40
8.59375
  1
壁　取付図
 41
0.8
 11
-35.471996999738749
 21
-82.906250000000028
 31
0.0
 73
     3
  0
LINE
  5
240
  8
DATA
  6
CONTINUOUS
 62
     7
 10
37.499999999999993
 20
-75.000000000000028
 30
0.0
 11
37.499999999999993
 21
-100.0
 31
0.0
  0
LINE
  5
241
  8
DATA
  6
CONTINUOUS
 62
     7
 10
-41.250000000000007
 20
40.499999999999773
 30
0.0
 11
-41.250000000000007
 21
30.00000000000005
 31
0.0
  0
LINE
  5
242
  8
DATA
  6
CONTINUOUS
 62
     7
 10
-15.000000000000121
 20
32.99999999999995
 30
0.0
 11
-15.000000000000121
 21
117.0
 31
0.0
  0
LINE
  5
243
  8
DATA
  6
CONTINUOUS
 62
     7
 10
-16.000000000000121
 20
32.99999999999995
 30
0.0
 11
-16.000000000000121
 21
116.9999999999997
 31
0.0
  0
LINE
  5
244
  8
DATA
  6
CONTINUOUS
 62
     7
 10
-40.120431893687631
 20
40.499999999999773
 30
0.0
 11
-40.120431893687631
 21
30.000000000000231
 31
0.0
  0
ARC
  5
245
  8
DATA
  6
CONTINUOUS
 62
     7
 10
-18.000000000000011
 20
32.99999999999995
 30
0.0
 40
3.0
 50
270.0
 51
0.0
  0
ARC
  5
246
  8
DATA
  6
CONTINUOUS
 62
     7
 10
-19.000000000000121
 20
32.99999999999995
 30
0.0
 40
3.0
 50
270.0
 51
0.0
  0
LINE
  5
247
  8
DATA
  6
CONTINUOUS
 62
     7
 10
-41.250000000000007
 20
109.5000000000001
 30
0.0
 11
-41.250000000000007
 21
119.9999999999998
 31
0.0
  0
CIRCLE
  5
248
  8
DATA
  6
CONTINUOUS
 62
     7
 10
-24.999999999999901
 20
75.0
 30
0.0
 40
3.5
  0
ARC
  5
249
  8
DATA
  6
CONTINUOUS
 62
     7
 10
-25.000000000000121
 20
75.0
 30
0.0
 40
8.75
 50
90.0
 51
157.43257737196461
  0
ARC
  5
24A
  8
DATA
  6
CONTINUOUS
 62
     7
 10
-25.000000000000121
 20
75.0
 30
0.0
 40
8.7499999999999591
 50
202.5674226280353
 51
270.0
  0
ARC
  5
24B
  8
DATA
  6
CONTINUOUS
 62
     7
 10
-25.000000000000121
 20
75.0
 30
0.0
 40
9.8795681063123197
 50
90.0
 51
149.36706613874011
  0
ARC
  5
24C
  8
DATA
  6
CONTINUOUS
 62
     7
 10
-25.000000000000121
 20
75.0
 30
0.0
 40
9.8795681063122593
 50
210.6329338612598
 51
270.0
  0
LINE
  5
24D
  8
DATA
  6
CONTINUOUS
 62
     7
 10
-40.120431893687631
 20
109.5000000000001
 30
0.0
 11
-40.120431893687631
 21
119.9999999999996
 31
0.0
  0
LINE
  5
24E
  8
DATA
  6
CONTINUOUS
 62
     7
 10
-25.000000000000121
 20
65.120431893687794
 30
0.0
 11
-16.000000000000121
 21
65.120431893687794
 31
0.0
  0
LINE
  5
24F
  8
DATA
  6
CONTINUOUS
 62
     7
 10
-16.000000000000121
 20
66.249999999999829
 30
0.0
 11
-25.000000000000121
 21
66.249999999999915
 31
0.0
  0
LINE
  5
250
  8
DATA
  6
CONTINUOUS
 62
     7
 10
-16.000000000000121
 20
83.75
 30
0.0
 11
-25.000000000000121
 21
83.75
 31
0.0
  0
LINE
  5
251
  8
DATA
  6
CONTINUOUS
 62
     7
 10
-16.000000000000121
 20
84.879568106312377
 30
0.0
 11
-25.000000000000011
 21
84.879568106312377
 31
0.0
  0
ARC
  5
252
  8
DATA
  6
CONTINUOUS
 62
     7
 10
-18.000000000000011
 20
117.0
 30
0.0
 40
3.0
 50
0.0
 51
90.0
  0
ARC
  5
253
  8
DATA
  6
CONTINUOUS
 62
     7
 10
-19.000000000000231
 20
116.9999999999997
 30
0.0
 40
3.0
 50
0.0
 51
90.0
  0
TEXT
  5
254
  8
DATA
 62
     7
 10
77.915805532635062
 20
-31.25000000000011
 30
0.0
 40
8.59375
  1
側面
 41
0.8
 11
77.915805532635062
 21
-22.65625000000011
 31
0.0
 73
     3
  0
LINE
  5
255
  8
DATA
  6
CONTINUOUS
 62
     7
 10
68.749999999999986
 20
-37.500000000000021
 30
0.0
 11
106.25
 21
-37.500000000000021
 31
0.0
  0
ARC
  5
256
  8
DATA
  6
CONTINUOUS
 62
     7
 10
46.849999999999888
 20
75.0
 30
0.0
 40
17.250000000000028
 50
18.592822549426991
 51
341.40717745057322
  0
LINE
  5
257
  8
DATA
  6
CONTINUOUS
 62
     7
 10
98.000000000000114
 20
75.0
 30
0.0
 11
107.0
 21
75.0
 31
0.0
  0
LINE
  5
258
  8
DATA
  6
CONTINUOUS
 62
     7
 10
97.999999999999886
 20
83.443747686898348
 30
0.0
 11
107.0
 21
83.443747686898348
 31
0.0
  0
LINE
  5
259
  8
DATA
  6
CONTINUOUS
 62
     7
 10
97.999999999999886
 20
66.556252313101822
 30
0.0
 11
107.0
 21
66.556252313101822
 31
0.0
  0
LINE
  5
25A
  8
DATA
  6
CONTINUOUS
 62
     7
 10
98.000000000000114
 20
83.443747686898348
 30
0.0
 11
98.000000000000114
 21
66.556252313101822
 31
0.0
  0
LINE
  5
25B
  8
DATA
  6
CONTINUOUS
 62
     7
 10
107.0
 20
84.500000000000043
 30
0.0
 11
107.0
 21
65.500000000000099
 31
0.0
  0
LINE
  5
25C
  8
DATA
  6
CONTINUOUS
 62
     7
 10
63.199694186742121
 20
80.500000000000043
 30
0.0
 11
63.199694186742342
 21
69.499999999999773
 31
0.0
  0
LINE
  5
25D
  8
DATA
  6
CONTINUOUS
 62
     7
 10
63.199694186742342
 20
69.499999999999773
 30
0.0
 11
98.000000000000114
 21
69.499999999999773
 31
0.0
  0
LINE
  5
25E
  8
DATA
  6
CONTINUOUS
 62
     7
 10
98.000000000000114
 20
80.500000000000085
 30
0.0
 11
63.199694186742121
 21
80.500000000000043
 31
0.0
  0
LINE
  5
25F
  8
DATA
  6
CONTINUOUS
 62
     7
 10
-125.0
 20
325.0
 30
0.0
 11
24.999999999999979
 21
325.0
 31
0.0
  0
ARC
  5
260
  8
DATA
  6
CONTINUOUS
 62
     7
 10
-50.000000000000142
 20
387.75000000000091
 30
0.0
 40
76.25000000000081
 50
245.5076213631325
 51
294.49237863686722
  0
LINE
  5
261
  8
DATA
  6
CONTINUOUS
 62
     7
 10
-85.000000000000014
 20
325.0
 30
0.0
 11
-15.000000000000011
 21
325.0
 31
0.0
  0
CIRCLE
  5
262
  8
DATA
  6
CONTINUOUS
 62
     7
 10
-50.000000000000021
 20
246.84999999999999
 30
0.0
 40
17.25
  0
LINE
  5
263
  8
DATA
  6
CONTINUOUS
 62
     7
 10
-50.000000000000021
 20
400.0
 30
0.0
 11
24.999999999999979
 21
325.0
 31
0.0
  0
LINE
  5
264
  8
DATA
  6
CONTINUOUS
 62
     7
 10
-59.750000000000362
 20
298.0
 30
0.0
 11
-40.250000000000242
 21
298.0
 31
0.0
  0
LINE
  5
265
  8
DATA
  6
CONTINUOUS
 62
     7
 10
-60.500000000000021
 20
309.49999999999989
 30
0.0
 11
-39.500000000000128
 21
309.50000000000011
 31
0.0
  0
LINE
  5
266
  8
DATA
  6
CONTINUOUS
 62
     7
 10
-59.750000000000362
 20
307.00000000000023
 30
0.0
 11
-40.250000000000242
 21
306.99999999999989
 31
0.0
  0
LINE
  5
267
  8
DATA
  6
CONTINUOUS
 62
     7
 10
-50.000000000000021
 20
350.0
 30
0.0
 11
-25.000000000000011
 21
325.0
 31
0.0
  0
LINE
  5
268
  8
DATA
  6
CONTINUOUS
 62
     7
 10
-68.750000000000014
 20
187.5
 30
0.0
 11
-31.250000000000011
 21
187.5
 31
0.0
  0
LINE
  5
269
  8
DATA
  6
CONTINUOUS
 62
     7
 10
-58.749999999999893
 20
319.0
 30
0.0
 11
-41.250000000000007
 21
319.0
 31
0.0
  0
TEXT
  5
26A
  8
DATA
 62
     7
 10
-59.584194467364931
 20
193.74999999999989
 30
0.0
 40
8.59375
  1
上面
 41
0.8
 11
-59.584194467364931
 21
202.34374999999989
 31
0.0
 73
     3
  0
TEXT
  5
26B
  8
DATA
 62
     7
 10
-54.950697332872572
 20
357.5
 30
0.0
 40
8.59375
  1
壁
 41
0.8
 11
-54.950697332872572
 21
366.09375
 31
0.0
 73
     3
  0
LINE
  5
26C
  8
DATA
  6
CONTINUOUS
 62
     7
 10
-125.0
 20
400.0
 30
0.0
 11
-50.000000000000021
 21
325.0
 31
0.0
  0
LINE
  5
26D
  8
DATA
  6
CONTINUOUS
 62
     7
 10
-125.0000000000001
 20
375.0
 30
0.0
 11
-75.000000000000128
 21
325.0
 31
0.0
  0
LINE
  5
26E
  8
DATA
  6
CONTINUOUS
 62
     7
 10
-125.0
 20
350.0
 30
0.0
 11
-100.0
 21
325.0
 31
0.0
  0
LINE
  5
26F
  8
DATA
  6
CONTINUOUS
 62
     7
 10
-55.500000000000021
 20
263.19969418674242
 30
0.0
 11
-55.500000000000021
 21
298.0
 31
0.0
  0
ARC
  5
270
  8
DATA
  6
CONTINUOUS
 62
     7
 10
-79.53826909813678
 20
322.91132975849962
 30
0.0
 40
4.9999999999999849
 50
190.30484646876539
 51
245.5076213631329
  0
LINE
  5
271
  8
DATA
  6
CONTINUOUS
 62
     7
 10
-60.500000000000142
 20
312.22641096981692
 30
0.0
 11
-60.500000000000021
 21
309.49999999999989
 31
0.0
  0
LINE
  5
272
  8
DATA
  6
CONTINUOUS
 62
     7
 10
-59.750000000000362
 20
298.0
 30
0.0
 11
-59.750000000000362
 21
307.00000000000023
 31
0.0
  0
LINE
  5
273
  8
DATA
  6
CONTINUOUS
 62
     7
 10
-59.500000000000128
 20
306.99999999999989
 30
0.0
 11
-59.500000000000021
 21
309.49999999999989
 31
0.0
  0
LINE
  5
274
  8
DATA
  6
CONTINUOUS
 62
     7
 10
-54.875000000000142
 20
298.0
 30
0.0
 11
-54.875000000000142
 21
306.99999999999989
 31
0.0
  0
LINE
  5
275
  8
DATA
  6
CONTINUOUS
 62
     7
 10
-58.749999999999893
 20
312.00371296228462
 30
0.0
 11
-58.749999999999893
 21
319.0
 31
0.0
  0
LINE
  5
276
  8
DATA
  6
CONTINUOUS
 62
     7
 10
-85.000000000000014
 20
325.0
 30
0.0
 11
-84.457618648636299
 21
322.0169025674997
 31
0.0
  0
LINE
  5
277
  8
DATA
  6
CONTINUOUS
 62
     7
 10
-75.000000000000128
 20
400.0
 30
0.0
 11
-50.000000000000142
 21
375.0
 31
0.0
  0
LINE
  5
278
  8
DATA
  6
CONTINUOUS
 62
     7
 10
-99.999999999999915
 20
400.0
 30
0.0
 11
-75.000000000000128
 21
375.0
 31
0.0
  0
LINE
  5
279
  8
DATA
  6
CONTINUOUS
 62
     7
 10
-24.999999999999901
 20
400.0
 30
0.0
 11
24.999999999999979
 21
350.0
 31
0.0
  0
LINE
  5
27A
  8
DATA
  6
CONTINUOUS
 62
     7
 10
-44.500000000000007
 20
263.19969418674231
 30
0.0
 11
-44.500000000000007
 21
298.0
 31
0.0
  0
LINE
  5
27B
  8
DATA
  6
CONTINUOUS
 62
     7
 10
-45.124999999999893
 20
298.0
 30
0.0
 11
-45.124999999999893
 21
306.99999999999989
 31
0.0
  0
LINE
  5
27C
  8
DATA
  6
CONTINUOUS
 62
     7
 10
-40.500000000000007
 20
306.99999999999989
 30
0.0
 11
-40.500000000000007
 21
309.50000000000011
 31
0.0
  0
LINE
  5
27D
  8
DATA
  6
CONTINUOUS
 62
     7
 10
-41.250000000000007
 20
312.00371296228462
 30
0.0
 11
-41.250000000000007
 21
319.0
 31
0.0
  0
ARC
  5
27E
  8
DATA
  6
CONTINUOUS
 62
     7
 10
-20.461730901863358
 20
322.91132975849911
 30
0.0
 40
5.0
 50
294.49237863686687
 51
349.6951535312333
  0
LINE
  5
27F
  8
DATA
  6
CONTINUOUS
 62
     7
 10
-39.500000000000128
 20
309.50000000000011
 30
0.0
 11
-39.500000000000128
 21
312.22641096981692
 31
0.0
  0
LINE
  5
280
  8
DATA
  6
CONTINUOUS
 62
     7
 10
-40.250000000000242
 20
297.99999999999977
 30
0.0
 11
-40.250000000000242
 21
306.99999999999989
 31
0.0
  0
LINE
  5
281
  8
DATA
  6
CONTINUOUS
 62
     7
 10
-25.000000000000121
 20
349.99999999999989
 30
0.0
 11
-0.0000000000000142
 21
325.0
 31
0.0
  0
LINE
  5
282
  8
DATA
  6
CONTINUOUS
 62
     7
 10
-15.54238135136382
 20
322.01690256749907
 30
0.0
 11
-15.000000000000011
 21
325.0
 31
0.0
  0
LINE
  5
283
  8
DATA
  6
CONTINUOUS
 62
     7
 10
-0.0000000000000142
 20
400.0
 30
0.0
 11
24.999999999999869
 21
375.0
 31
0.0
  0
LINE
  5
284
  8
DATA
  6
CONTINUOUS
 62
     7
 10
199.9999999999998
 20
149.99999999999989
 30
0.0
 11
125.0
 21
75.0
 31
0.0
  0
LINE
  5
285
  8
DATA
  6
CONTINUOUS
 62
     7
 10
125.0
 20
149.99999999999989
 30
0.0
 11
125.0
 21
0.0000000000000568
 31
0.0
  0
LINE
  5
286
  8
DATA
  6
CONTINUOUS
 62
     7
 10
174.99999999999989
 20
150.00000000000011
 30
0.0
 11
125.0
 21
100.0000000000001
 31
0.0
  0
LINE
  5
287
  8
DATA
  6
CONTINUOUS
 62
     7
 10
150.0
 20
149.99999999999989
 30
0.0
 11
125.0
 21
125.0
 31
0.0
  0
ARC
  5
288
  8
DATA
  6
CONTINUOUS
 62
     7
 10
275.0000000000008
 20
38.304878048780033
 30
0.0
 40
12.445121951220401
 50
10.159215720031289
 51
169.84078427996999
  0
LINE
  5
289
  8
DATA
  6
CONTINUOUS
 62
     7
 10
243.0
 20
30.00000000000005
 30
0.0
 11
307.0
 21
30.00000000000005
 31
0.0
  0
LINE
  5
28A
  8
DATA
  6
CONTINUOUS
 62
     7
 10
243.53384687501509
 20
32.5
 30
0.0
 11
306.46615312498483
 21
32.5
 31
0.0
  0
LINE
  5
28B
  8
DATA
  6
CONTINUOUS
 62
     7
 10
307.0
 20
120.0000000000001
 30
0.0
 11
243.0
 21
119.9999999999998
 31
0.0
  0
LINE
  5
28C
  8
DATA
  6
CONTINUOUS
 62
     7
 10
243.533846875015
 20
117.4999999999999
 30
0.0
 11
306.46615312498523
 21
117.4999999999999
 31
0.0
  0
ARC
  5
28D
  8
DATA
  6
CONTINUOUS
 62
     7
 10
275.0000000000008
 20
111.6951219512199
 30
0.0
 40
12.445121951220459
 50
190.15921572002989
 51
349.84078427996849
  0
CIRCLE
  5
28E
  8
DATA
  6
CONTINUOUS
 62
     7
 10
275.0
 20
75.0
 30
0.0
 40
12.25
  0
LINE
  5
28F
  8
DATA
  6
CONTINUOUS
 62
     7
 10
256.25
 20
-37.500000000000021
 30
0.0
 11
293.75
 21
-37.500000000000021
 31
0.0
  0
LINE
  5
290
  8
DATA
  6
CONTINUOUS
 62
     7
 10
268.5060780436641
 20
64.612917752081572
 30
0.0
 11
243.5338468750146
 21
32.499999999999538
 31
0.0
  0
LINE
  5
291
  8
DATA
  6
CONTINUOUS
 62
     7
 10
266.53256400458241
 20
66.147597633212229
 30
0.0
 11
242.50000000000031
 21
35.243040245497752
 31
0.0
  0
LINE
  5
292
  8
DATA
  6
CONTINUOUS
 62
     7
 10
243.533846875015
 20
117.5000000000001
 30
0.0
 11
268.5060780436641
 21
85.387082247918144
 31
0.0
  0
LINE
  5
293
  8
DATA
  6
CONTINUOUS
 62
     7
 10
242.50000000000031
 20
114.75695975450191
 30
0.0
 11
266.53256400458241
 21
83.852402366787487
 31
0.0
  0
LINE
  5
294
  8
DATA
  6
CONTINUOUS
 62
     7
 10
199.9999999999998
 20
75.0
 30
0.0
 11
125.0
 21
0.0000000000000568
 31
0.0
  0
LINE
  5
295
  8
DATA
  6
CONTINUOUS
 62
     7
 10
199.9999999999998
 20
49.999999999999893
 30
0.0
 11
150.0
 21
0.0000000000000568
 31
0.0
  0
LINE
  5
296
  8
DATA
  6
CONTINUOUS
 62
     7
 10
199.9999999999998
 20
25.0
 30
0.0
 11
174.99999999999989
 21
0.0000000000000568
 31
0.0
  0
LINE
  5
297
  8
DATA
  6
CONTINUOUS
 62
     7
 10
199.9999999999998
 20
125.0
 30
0.0
 11
174.99999999999989
 21
100.0000000000001
 31
0.0
  0
LINE
  5
298
  8
DATA
  6
CONTINUOUS
 62
     7
 10
199.9999999999998
 20
100.0000000000001
 30
0.0
 11
174.99999999999989
 21
75.000000000000213
 31
0.0
  0
LINE
  5
299
  8
DATA
  6
CONTINUOUS
 62
     7
 10
111.4999999999998
 20
64.500000000000227
 30
0.0
 11
111.4999999999998
 21
29.99999999999994
 31
0.0
  0
LINE
  5
29A
  8
DATA
  6
CONTINUOUS
 62
     7
 10
149.9999999999998
 20
50.000000000000099
 30
0.0
 11
125.0
 21
25.0
 31
0.0
  0
LINE
  5
29B
  8
DATA
  6
CONTINUOUS
 62
     7
 10
125.0
 20
119.9999999999998
 30
0.0
 11
125.0
 21
29.99999999999994
 31
0.0
  0
LINE
  5
29C
  8
DATA
  6
CONTINUOUS
 62
     7
 10
119.4999999999998
 20
119.9999999999998
 30
0.0
 11
119.4999999999998
 21
29.99999999999994
 31
0.0
  0
LINE
  5
29D
  8
DATA
  6
CONTINUOUS
 62
     7
 10
111.4999999999998
 20
29.99999999999994
 30
0.0
 11
125.0
 21
29.99999999999994
 31
0.0
  0
LINE
  5
29E
  8
DATA
  6
CONTINUOUS
 62
     7
 10
111.4999999999998
 20
119.9999999999998
 30
0.0
 11
125.0
 21
119.9999999999998
 31
0.0
  0
LINE
  5
29F
  8
DATA
  6
CONTINUOUS
 62
     7
 10
111.6328742928284
 20
83.999999999999872
 30
0.0
 11
119.5
 21
83.999999999999872
 31
0.0
  0
LINE
  5
2A0
  8
DATA
  6
CONTINUOUS
 62
     7
 10
111.6328742928286
 20
66.000000000000099
 30
0.0
 11
119.5
 21
65.999999999999901
 31
0.0
  0
LINE
  5
2A1
  8
DATA
  6
CONTINUOUS
 62
     7
 10
111.4999999999998
 20
119.9999999999998
 30
0.0
 11
111.4999999999998
 21
85.500000000000185
 31
0.0
  0
LINE
  5
2A2
  8
DATA
  6
CONTINUOUS
 62
     7
 10
111.4999999999998
 20
85.500000000000185
 30
0.0
 11
109.4999999999998
 21
85.500000000000185
 31
0.0
  0
LINE
  5
2A3
  8
DATA
  6
CONTINUOUS
 62
     7
 10
109.5000000000001
 20
64.500000000000227
 30
0.0
 11
111.4999999999998
 21
64.500000000000227
 31
0.0
  0
LINE
  5
2A4
  8
DATA
  6
CONTINUOUS
 62
     7
 10
109.4999999999998
 20
85.499999999999929
 30
0.0
 11
109.4999999999998
 21
64.500000000000227
 31
0.0
  0
ARC
  5
2A5
  8
DATA
  6
CONTINUOUS
 62
     7
 10
1.499999999978612
 20
74.999999999999545
 30
0.0
 40
110.5000000000213
 50
354.5473780121888
 51
5.4526219878118241
  0
LINE
  5
2A6
  8
DATA
  6
CONTINUOUS
 62
     7
 10
150.0
 20
75.0
 30
0.0
 11
125.0
 21
50.0
 31
0.0
  0
TEXT
  5
2A7
  8
DATA
 62
     7
 10
157.54930266712731
 20
69.999999999999915
 30
0.0
 40
8.59375
  1
壁
 41
0.8
 11
157.54930266712731
 21
78.593749999999915
 31
0.0
 73
     3
  0
LINE
  5
2A8
  8
DATA
  6
CONTINUOUS
 62
     7
 10
240.0
 20
117.0
 30
0.0
 11
240.0
 21
32.99999999999995
 31
0.0
  0
LINE
  5
2A9
  8
DATA
  6
CONTINUOUS
 62
     7
 10
242.50000000000031
 20
114.75695975450191
 30
0.0
 11
242.50000000000031
 21
35.243040245497752
 31
0.0
  0
LINE
  5
2AA
  8
DATA
  6
CONTINUOUS
 62
     7
 10
262.75
 20
40.499999999999773
 30
0.0
 11
262.74999999999989
 21
32.499999999999773
 31
0.0
  0
ARC
  5
2AB
  8
DATA
  6
CONTINUOUS
 62
     7
 10
243.0
 20
32.99999999999995
 30
0.0
 40
3.0
 50
180.0
 51
270.0
  0
CIRCLE
  5
2AC
  8
DATA
  6
CONTINUOUS
 62
     7
 10
249.99999999999989
 20
75.0
 30
0.0
 40
3.5999999999999082
  0
LINE
  5
2AD
  8
DATA
  6
CONTINUOUS
 62
     7
 10
242.50000000000031
 20
87.250000000000043
 30
0.0
 11
249.99999999999989
 21
87.250000000000043
 31
0.0
  0
LINE
  5
2AE
  8
DATA
  6
CONTINUOUS
 62
     7
 10
242.50000000000031
 20
62.750000000000107
 30
0.0
 11
249.99999999999989
 21
62.750000000000107
 31
0.0
  0
ARC
  5
2AF
  8
DATA
  6
CONTINUOUS
 62
     7
 10
243.0
 20
117.0
 30
0.0
 40
3.0
 50
90.0
 51
180.0
  0
LINE
  5
2B0
  8
DATA
  6
CONTINUOUS
 62
     7
 10
262.74999999999989
 20
117.5000000000001
 30
0.0
 11
262.75
 21
109.4999999999999
 31
0.0
  0
ARC
  5
2B1
  8
DATA
  6
CONTINUOUS
 62
     7
 10
247.80487804878001
 20
75.000000000000838
 30
0.0
 40
12.44512195122045
 50
280.15921572002958
 51
79.840784279968219
  0
ARC
  5
2B2
  8
DATA
  6
CONTINUOUS
 62
     7
 10
275.0
 20
75.0
 30
0.0
 40
15.000000000000011
 50
132.65019184719921
 51
172.95472999209639
  0
ARC
  5
2B3
  8
DATA
  6
CONTINUOUS
 62
     7
 10
275.0
 20
75.0
 30
0.0
 40
15.0
 50
187.0452700078996
 51
227.3498081528009
  0
CIRCLE
  5
2B4
  8
DATA
  6
CONTINUOUS
 62
     7
 10
275.0
 20
40.499999999999993
 30
0.0
 40
3.5999999999999082
  0
LINE
  5
2B5
  8
DATA
  6
CONTINUOUS
 62
     7
 10
281.49392195633601
 20
64.612917752081572
 30
0.0
 11
306.46615312498523
 21
32.499999999999538
 31
0.0
  0
LINE
  5
2B6
  8
DATA
  6
CONTINUOUS
 62
     7
 10
310.0
 20
117.0
 30
0.0
 11
310.0
 21
33.000000000000171
 31
0.0
  0
LINE
  5
2B7
  8
DATA
  6
CONTINUOUS
 62
     7
 10
307.49999999999977
 20
114.75695975450191
 30
0.0
 11
307.49999999999977
 21
35.243040245497752
 31
0.0
  0
LINE
  5
2B8
  8
DATA
  6
CONTINUOUS
 62
     7
 10
283.46743599541747
 20
66.147597633212229
 30
0.0
 11
307.49999999999977
 21
35.243040245497752
 31
0.0
  0
LINE
  5
2B9
  8
DATA
  6
CONTINUOUS
 62
     7
 10
287.25
 20
40.499999999999773
 30
0.0
 11
287.25
 21
32.5
 31
0.0
  0
TEXT
  5
2BA
  8
DATA
 62
     7
 10
265.4158055326352
 20
-31.25000000000011
 30
0.0
 40
8.59375
  1
裏面
 41
0.8
 11
265.4158055326352
 21
-22.65625000000011
 31
0.0
 73
     3
  0
ARC
  5
2BB
  8
DATA
  6
CONTINUOUS
 62
     7
 10
307.0
 20
33.000000000000171
 30
0.0
 40
3.0
 50
270.0
 51
0.0
  0
CIRCLE
  5
2BC
  8
DATA
  6
CONTINUOUS
 62
     7
 10
275.0
 20
109.4999999999999
 30
0.0
 40
3.5999999999999082
  0
ARC
  5
2BD
  8
DATA
  6
CONTINUOUS
 62
     7
 10
275.0
 20
75.0
 30
0.0
 40
14.99999999999992
 50
56.910191847199187
 51
123.0898081528015
  0
CIRCLE
  5
2BE
  8
DATA
  6
CONTINUOUS
 62
     7
 10
275.0
 20
75.0
 30
0.0
 40
4.75
  0
LINE
  5
2BF
  8
DATA
  6
CONTINUOUS
 62
     7
 10
275.0
 20
83.999999999999872
 30
0.0
 11
267.20577136594
 21
79.499999999999872
 31
0.0
  0
LINE
  5
2C0
  8
DATA
  6
CONTINUOUS
 62
     7
 10
267.20577136594
 20
70.5
 30
0.0
 11
275.0
 21
65.999999999999901
 31
0.0
  0
ARC
  5
2C1
  8
DATA
  6
CONTINUOUS
 62
     7
 10
275.0
 20
75.0
 30
0.0
 40
15.000000000000011
 50
236.9101918471994
 51
303.08980815280052
  0
LINE
  5
2C2
  8
DATA
  6
CONTINUOUS
 62
     7
 10
267.20577136594
 20
79.499999999999872
 30
0.0
 11
267.20577136594
 21
70.5
 31
0.0
  0
LINE
  5
2C3
  8
DATA
  6
CONTINUOUS
 62
     7
 10
306.46615312498528
 20
117.5000000000001
 30
0.0
 11
281.49392195633601
 21
85.387082247918144
 31
0.0
  0
LINE
  5
2C4
  8
DATA
  6
CONTINUOUS
 62
     7
 10
307.49999999999977
 20
114.75695975450191
 30
0.0
 11
283.46743599541747
 21
83.852402366787487
 31
0.0
  0
LINE
  5
2C5
  8
DATA
  6
CONTINUOUS
 62
     7
 10
287.25
 20
117.5000000000001
 30
0.0
 11
287.25
 21
109.4999999999999
 31
0.0
  0
ARC
  5
2C6
  8
DATA
  6
CONTINUOUS
 62
     7
 10
307.0
 20
117.0
 30
0.0
 40
3.0
 50
0.0
 51
90.0
  0
LINE
  5
2C7
  8
DATA
  6
CONTINUOUS
 62
     7
 10
282.79422863406
 20
70.5
 30
0.0
 11
282.79422863406
 21
79.499999999999872
 31
0.0
  0
ARC
  5
2C8
  8
DATA
  6
CONTINUOUS
 62
     7
 10
302.19512195121979
 20
75.000000000000838
 30
0.0
 40
12.44512195122048
 50
100.1592157200317
 51
259.84078427996968
  0
CIRCLE
  5
2C9
  8
DATA
  6
CONTINUOUS
 62
     7
 10
299.99999999999989
 20
75.0
 30
0.0
 40
3.600000000000136
  0
ARC
  5
2CA
  8
DATA
  6
CONTINUOUS
 62
     7
 10
275.0
 20
75.0
 30
0.0
 40
14.999999999999901
 50
7.0452700079036559
 51
47.34980815280111
  0
LINE
  5
2CB
  8
DATA
  6
CONTINUOUS
 62
     7
 10
282.79422863406
 20
79.499999999999872
 30
0.0
 11
275.0
 21
83.999999999999872
 31
0.0
  0
LINE
  5
2CC
  8
DATA
  6
CONTINUOUS
 62
     7
 10
299.99999999999989
 20
87.250000000000043
 30
0.0
 11
307.49999999999977
 21
87.250000000000043
 31
0.0
  0
ARC
  5
2CD
  8
DATA
  6
CONTINUOUS
 62
     7
 10
275.0
 20
75.0
 30
0.0
 40
14.99999999999998
 50
312.6501918471987
 51
352.95472999210023
  0
LINE
  5
2CE
  8
DATA
  6
CONTINUOUS
 62
     7
 10
275.0
 20
65.999999999999901
 30
0.0
 11
282.79422863406
 21
70.5
 31
0.0
  0
LINE
  5
2CF
  8
DATA
  6
CONTINUOUS
 62
     7
 10
299.99999999999989
 20
62.750000000000107
 30
0.0
 11
307.49999999999977
 21
62.750000000000107
 31
0.0
  0
TEXT
  5
2D0
  8
DATA
 62
     7
 10
251.2088418581842
 20
-202.85749999999999
 30
0.0
 40
7.6199999999999983
  1
CONTROL 28/25用付属金具
 41
0.8
 11
251.2088418581842
 21
-195.23750000000001
 31
0.0
 73
     3
  0
ENDSEC
  0
EOF
